  0
SECTION
  2
HEADER
  9
$ACADVER
  1
AC1009
  9
$INSBASE
 10
0.0
 20
0.0
 30
0.0
  9
$EXTMIN
 10
-1.8289987858548771
 20
1.7316356303832749
 30
0.0
  9
$EXTMAX
 10
11.15267710217798
 20
15.03931358863227
 30
0.0
  9
$LIMMIN
 10
0.0
 20
0.0
  9
$LIMMAX
 10
12.0
 20
9.0
  9
$ORTHOMODE
 70
     0
  9
$REGENMODE
 70
     1
  9
$FILLMODE
 70
     1
  9
$QTEXTMODE
 70
     0
  9
$MIRRTEXT
 70
     1
  9
$DRAGMODE
 70
     2
  9
$LTSCALE
 40
0.6
  9
$OSMODE
 70
   111
  9
$ATTMODE
 70
     1
  9
$TEXTSIZE
 40
4.0
  9
$TRACEWID
 40
0.05
  9
$TEXTSTYLE
  7
ARIAL
  9
$CLAYER
  8
ADAPTER
  9
$CELTYPE
  6
BYLAYER
  9
$CECOLOR
 62
   256
  9
$DIMSCALE
 40
1.0
  9
$DIMASZ
 40
0.125
  9
$DIMEXO
 40
0.0625
  9
$DIMDLI
 40
0.25
  9
$DIMRND
 40
0.0
  9
$DIMDLE
 40
0.0
  9
$DIMEXE
 40
0.125
  9
$DIMTP
 40
0.0
  9
$DIMTM
 40
0.0
  9
$DIMTXT
 40
0.125
  9
$DIMCEN
 40
0.09
  9
$DIMTSZ
 40
0.0
  9
$DIMTOL
 70
     0
  9
$DIMLIM
 70
     0
  9
$DIMTIH
 70
     1
  9
$DIMTOH
 70
     1
  9
$DIMSE1
 70
     0
  9
$DIMSE2
 70
     0
  9
$DIMTAD
 70
     0
  9
$DIMZIN
 70
     4
  9
$DIMBLK
  1

  9
$DIMASO
 70
     1
  9
$DIMSHO
 70
     1
  9
$DIMPOST
  1

  9
$DIMAPOST
  1

  9
$DIMALT
 70
     0
  9
$DIMALTD
 70
     2
  9
$DIMALTF
 40
25.399999999999999
  9
$DIMLFAC
 40
1.0
  9
$DIMTOFL
 70
     0
  9
$DIMTVP
 40
0.0
  9
$DIMTIX
 70
     0
  9
$DIMSOXD
 70
     0
  9
$DIMSAH
 70
     0
  9
$DIMBLK1
  1

  9
$DIMBLK2
  1

  9
$DIMSTYLE
  2
FRAC
  9
$DIMCLRD
 70
   256
  9
$DIMCLRE
 70
   256
  9
$DIMCLRT
 70
   256
  9
$DIMTFAC
 40
1.0
  9
$DIMGAP
 40
0.09
  9
$LUNITS
 70
     2
  9
$LUPREC
 70
     4
  9
$SKETCHINC
 40
0.1
  9
$FILLETRAD
 40
0.5
  9
$AUNITS
 70
     0
  9
$AUPREC
 70
     0
  9
$MENU
  1
.
  9
$ELEVATION
 40
0.0
  9
$PELEVATION
 40
0.0
  9
$THICKNESS
 40
0.0
  9
$LIMCHECK
 70
     0
  9
$BLIPMODE
 70
     0
  9
$CHAMFERA
 40
0.0
  9
$CHAMFERB
 40
0.0
  9
$SKPOLY
 70
     0
  9
$TDCREATE
 40
2452392.3517971062
  9
$TDUPDATE
 40
2452554.4584606481
  9
$TDINDWG
 40
0.1765674769
  9
$TDUSRTIMER
 40
0.1765649306
  9
$USRTIMER
 70
     1
  9
$ANGBASE
 50
0.0
  9
$ANGDIR
 70
     0
  9
$PDMODE
 70
     3
  9
$PDSIZE
 40
0.0
  9
$PLINEWID
 40
0.0
  9
$COORDS
 70
     2
  9
$SPLFRAME
 70
     0
  9
$SPLINETYPE
 70
     6
  9
$SPLINESEGS
 70
     8
  9
$ATTDIA
 70
     0
  9
$ATTREQ
 70
     1
  9
$HANDLING
 70
  4097
  9
$HANDSEED
  5
99B
  9
$SURFTAB1
 70
     6
  9
$SURFTAB2
 70
     6
  9
$SURFTYPE
 70
     6
  9
$SURFU
 70
     6
  9
$SURFV
 70
     6
  9
$UCSNAME
  2

  9
$UCSORG
 10
0.0
 20
0.0
 30
0.0
  9
$UCSXDIR
 10
1.0
 20
0.0
 30
0.0
  9
$UCSYDIR
 10
0.0
 20
1.0
 30
0.0
  9
$PUCSNAME
  2

  9
$PUCSORG
 10
0.0
 20
0.0
 30
0.0
  9
$PUCSXDIR
 10
1.0
 20
0.0
 30
0.0
  9
$PUCSYDIR
 10
0.0
 20
1.0
 30
0.0
  9
$USERI1
 70
     0
  9
$USERI2
 70
     0
  9
$USERI3
 70
     0
  9
$USERI4
 70
     0
  9
$USERI5
 70
     0
  9
$USERR1
 40
1.0
  9
$USERR2
 40
25.399999999999999
  9
$USERR3
 40
0.0
  9
$USERR4
 40
0.0
  9
$USERR5
 40
0.0
  9
$WORLDVIEW
 70
     1
  9
$SHADEDGE
 70
     3
  9
$SHADEDIF
 70
    70
  9
$TILEMODE
 70
     1
  9
$MAXACTVP
 70
    48
  9
$PLIMCHECK
 70
     0
  9
$PEXTMIN
 10
1.0000000000000000E+020
 20
1.0000000000000000E+020
 30
1.0000000000000000E+020
  9
$PEXTMAX
 10
-1.0000000000000000E+020
 20
-1.0000000000000000E+020
 30
-1.0000000000000000E+020
  9
$PLIMMIN
 10
0.0
 20
0.0
  9
$PLIMMAX
 10
12.0
 20
9.0
  9
$UNITMODE
 70
     0
  9
$VISRETAIN
 70
     1
  9
$PLINEGEN
 70
     0
  9
$PSLTSCALE
 70
     1
  0
ENDSEC
  0
SECTION
  2
TABLES
  0
TABLE
  2
VPORT
 70
     2
  0
VPORT
  2
*ACTIVE
 70
     0
 10
0.0
 20
0.0
 11
1.0
 21
1.0
 12
7.0584794417345362
 22
8.3853765952496992
 13
0.0
 23
0.0
 14
0.5
 24
0.5
 15
0.5
 25
0.5
 16
0.0
 26
0.0
 36
1.0
 17
0.0
 27
0.0
 37
0.0
 40
13.667640240171821
 41
1.3665594855305461
 42
50.0
 43
0.0
 44
0.0
 50
0.0
 51
0.0
 71
     0
 72
   100
 73
     1
 74
     2
 75
     0
 76
     0
 77
     0
 78
     0
  0
ENDTAB
  0
TABLE
  2
LTYPE
 70
     3
  0
LTYPE
  2
CONTINUOUS
 70
     0
  3
Solid line
 72
    65
 73
     0
 40
0.0
  0
LTYPE
  2
CENTER
 70
     0
  3
Center ____ _ ____ _ ____ _ ____ _ ____ _ ____
 72
    65
 73
     4
 40
2.0
 49
1.25
 49
-0.25
 49
0.25
 49
-0.25
  0
LTYPE
  2
HIDDEN
 70
     0
  3
Hidden __ __ __ __ __ __ __ __ __ __ __ __ __ _
 72
    65
 73
     2
 40
0.375
 49
0.25
 49
-0.125
  0
ENDTAB
  0
TABLE
  2
LAYER
 70
     6
  0
LAYER
  2
0
 70
     0
 62
     7
  6
CONTINUOUS
  0
LAYER
  2
CENTERLINE
 70
     0
 62
     1
  6
CENTER
  0
LAYER
  2
2-7
 70
     0
 62
     2
  6
CONTINUOUS
  0
LAYER
  2
ADAPTER
 70
     0
 62
     3
  6
CONTINUOUS
  0
LAYER
  2
DIMENSION
 70
     0
 62
     1
  6
CONTINUOUS
  0
LAYER
  2
DRIVE_TANG
 70
     0
 62
     4
  6
CONTINUOUS
  0
ENDTAB
  0
TABLE
  2
STYLE
 70
     2
  0
STYLE
  2
STANDARD
 70
     0
 40
0.0
 41
1.0
 50
0.0
 71
     0
 42
0.2
  3
txt
  4

  0
STYLE
  2
ARIAL
 70
     0
 40
0.0
 41
1.0
 50
0.0
 71
     0
 42
4.0
  3
txt
  4

  0
ENDTAB
  0
TABLE
  2
VIEW
 70
     0
  0
ENDTAB
  0
TABLE
  2
UCS
 70
     0
  0
ENDTAB
  0
TABLE
  2
APPID
 70
     1
  0
APPID
  2
ACAD
 70
     0
  0
ENDTAB
  0
TABLE
  2
DIMSTYLE
 70
     1
  0
DIMSTYLE
  2
FRAC
 70
     0
  3

  4

  5

  6

  7

 40
1.0
 41
0.125
 42
0.0625
 43
0.25
 44
0.125
 45
0.0
 46
0.0
 47
0.0
 48
0.0
140
0.125
141
0.09
142
0.0
143
25.399999999999999
144
1.0
145
0.0
146
1.0
147
0.09
 71
     0
 72
     0
 73
     1
 74
     1
 75
     0
 76
     0
 77
     0
 78
     4
170
     0
171
     2
172
     0
173
     0
174
     0
175
     0
176
   256
177
   256
178
   256
  0
ENDTAB
  0
ENDSEC
  0
SECTION
  2
BLOCKS
  0
BLOCK
  8
0
  2
$MODEL_SPACE
 70
     0
 10
0.0
 20
0.0
 30
0.0
  3
$MODEL_SPACE
  1

  0
ENDBLK
  5
21
  8
0
  0
BLOCK
 67
     1
  8
0
  2
$PAPER_SPACE
 70
     0
 10
0.0
 20
0.0
 30
0.0
  3
$PAPER_SPACE
  1

  0
ENDBLK
  5
1D
 67
     1
  8
0
  0
BLOCK
  8
0
  2
*U1
 70
     1
 10
0.0
 20
0.0
 30
0.0
  3
*U1
  1

  0
TEXT
  5
98B
  8
ADAPTER
 10
-1.749828938760744
 20
3.194518265876555
 30
0.0
 40
0.15748032
  1
6mm x 6mm LG. S.S.
  7
ARIAL
  0
TEXT
  5
98C
  8
ADAPTER
 10
-1.8187937173692019
 20
2.9293655215382191
 30
0.0
 40
0.15748032
  1
USES 3MM HEX KEY
  7
ARIAL
  0
ENDBLK
  5
98E
  8
0
  0
ENDSEC
  0
SECTION
  2
ENTITIES
  0
LINE
  5
75
  8
2-7
 10
0.4277728518788359
 20
15.03931358863227
 30
0.0
 11
5.0394596689117268
 21
15.03931358863227
 31
0.0
  0
LINE
  5
79
  8
CENTERLINE
 10
-0.2191397396047182
 20
13.543250548632271
 30
0.0
 11
5.6863722603952809
 21
13.543250548632271
 31
0.0
  0
LINE
  5
CE
  8
2-7
 10
-0.1200371005130909
 20
4.1831711419032747
 30
0.0
 11
5.5872696213036539
 21
4.1831711419032764
 31
0.0
  0
LINE
  5
D2
  8
2-7
 10
2.7355847643952811
 20
3.3851789903832739
 30
0.0
 11
2.7355847643952811
 21
4.1831711419032764
 31
0.0
  0
LINE
  5
D3
  8
2-7
 10
2.7355847643952811
 20
3.3851789903832752
 30
0.0
 11
5.2513328763952813
 21
3.3851789903832761
 31
0.0
  0
POLYLINE
  5
11B
  8
2-7
  6
HIDDEN
 66
     1
 10
0.0
 20
0.0
 30
0.0
 70
     1
  0
VERTEX
  5
97C
  8
2-7
  6
HIDDEN
 10
1.314661416393162
 20
13.81884110863227
 30
0.0
  0
VERTEX
  5
97D
  8
2-7
  6
HIDDEN
 10
1.1555491323910421
 20
13.543250548632271
 30
0.0
  0
VERTEX
  5
97E
  8
2-7
  6
HIDDEN
 10
1.3146614163931609
 20
13.267659988632269
 30
0.0
  0
VERTEX
  5
97F
  8
2-7
  6
HIDDEN
 10
1.6328859843974011
 20
13.267659988632269
 30
0.0
  0
VERTEX
  5
980
  8
2-7
  6
HIDDEN
 10
1.791998268399521
 20
13.543250548632271
 30
0.0
  0
VERTEX
  5
981
  8
2-7
  6
HIDDEN
 10
1.6328859843974011
 20
13.81884110863227
 30
0.0
  0
SEQEND
  5
982
  8
2-7
  6
HIDDEN
  0
CIRCLE
  5
11C
  8
2-7
  6
HIDDEN
 10
1.4737737003952811
 20
13.543250548632271
 30
0.0
 40
0.25590552
  0
LINE
  5
189
  8
2-7
 10
3.5977895163952822
 20
1.7316356303832749
 30
0.0
 11
3.5977895163952822
 21
3.3851789903832752
 31
0.0
  0
LINE
  5
18A
  8
2-7
 10
2.7355847643952811
 20
1.7316356303832749
 30
0.0
 11
3.5977895163952822
 21
1.7316356303832749
 31
0.0
  0
LINE
  5
3A2
  8
CENTERLINE
 10
0.3714114603952818
 20
13.543250548632271
 30
0.0
 11
5.0958210603952807
 21
13.543250548632271
 31
0.0
  0
LINE
  5
3A5
  8
2-7
 10
0.427772851878837
 20
12.04718750863227
 30
0.0
 11
5.0394596689117259
 21
12.04718750863227
 31
0.0
  0
ARC
  5
3A6
  8
2-7
 10
3.2704986750013898
 20
13.543250548632271
 30
0.0
 40
2.3167709463022641
 50
319.77780315270502
 51
40.222196847294889
  0
ARC
  5
3A9
  8
2-7
 10
2.1967338457891721
 20
13.543250548632271
 30
0.0
 40
2.3167709463022641
 50
139.7778031527051
 51
220.22219684729501
  0
CIRCLE
  5
3AB
  8
2-7
  6
HIDDEN
 10
2.300545380395282
 20
13.543250548632271
 30
0.0
 40
0.4311023760000001
  0
CIRCLE
  5
3AC
  8
2-7
  6
HIDDEN
 10
3.1666871403952821
 20
13.543250548632271
 30
0.0
 40
0.4311023760000001
  0
CIRCLE
  5
3AE
  8
2-7
  6
HIDDEN
 10
0.6470020203952818
 20
13.543250548632271
 30
0.0
 40
0.4311023760000001
  0
CIRCLE
  5
3AF
  8
2-7
  6
HIDDEN
 10
4.8202305003952821
 20
13.543250548632271
 30
0.0
 40
0.4311023760000001
  0
POLYLINE
  5
3B2
  8
2-7
  6
HIDDEN
 66
     1
 10
0.0
 20
0.0
 30
0.0
 70
     1
  0
VERTEX
  5
983
  8
2-7
  6
HIDDEN
 10
4.152571104397401
 20
13.81884110863227
 30
0.0
  0
VERTEX
  5
984
  8
2-7
  6
HIDDEN
 10
4.31168338839952
 20
13.543250548632271
 30
0.0
  0
VERTEX
  5
985
  8
2-7
  6
HIDDEN
 10
4.152571104397401
 20
13.267659988632269
 30
0.0
  0
VERTEX
  5
986
  8
2-7
  6
HIDDEN
 10
3.8343465363931619
 20
13.267659988632269
 30
0.0
  0
VERTEX
  5
987
  8
2-7
  6
HIDDEN
 10
3.675234252391042
 20
13.543250548632271
 30
0.0
  0
VERTEX
  5
988
  8
2-7
  6
HIDDEN
 10
3.834346536393161
 20
13.81884110863227
 30
0.0
  0
SEQEND
  5
989
  8
2-7
  6
HIDDEN
  0
CIRCLE
  5
3B3
  8
2-7
  6
HIDDEN
 10
3.993458820395281
 20
13.543250548632271
 30
0.0
 40
0.25590552
  0
CIRCLE
  5
3B4
  8
2-7
  6
HIDDEN
 10
1.4737737003952811
 20
13.543250548632271
 30
0.0
 40
1.2578740559999999
  0
CIRCLE
  5
3B5
  8
2-7
  6
HIDDEN
 10
3.993458820395281
 20
13.543250548632271
 30
0.0
 40
1.2578740559999999
  0
LINE
  5
3B6
  8
2-7
 10
-0.1200371005130909
 20
4.1831711419032747
 30
0.0
 11
-0.1200371005130909
 21
7.4009271503832759
 31
0.0
  0
LINE
  5
3B7
  8
2-7
  6
HIDDEN
 10
0.4277728518788362
 20
4.1831711419032747
 30
0.0
 11
0.4277728518788364
 21
7.4009271503832759
 31
0.0
  0
LINE
  5
3B8
  8
2-7
 10
5.5872696213036539
 20
4.1831711419032764
 30
0.0
 11
5.5872696213036539
 21
7.400927150383275
 31
0.0
  0
LINE
  5
3B9
  8
2-7
  6
HIDDEN
 10
5.0394596689117268
 20
4.1831711419032747
 30
0.0
 11
5.0394596689117268
 21
7.400927150383275
 31
0.0
  0
LINE
  5
3BA
  8
2-7
 10
3.6752342523910411
 20
3.0930136267032751
 30
0.0
 11
4.3116833883995209
 21
3.093013626703276
 31
0.0
  0
LINE
  5
3BB
  8
2-7
 10
4.3195574043995206
 20
3.3725411947032762
 30
0.0
 11
3.6673602363910418
 21
3.3725411947032762
 31
0.0
  0
ARC
  5
3BC
  8
2-7
 10
3.993458820395281
 20
3.1135188767032749
 30
0.0
 40
0.2567257299999997
 50
184.5812200852769
 51
355.41877991472307
  0
LINE
  5
3BD
  8
2-7
 10
4.3116833883995209
 20
3.093013626703276
 30
0.0
 11
4.3116833883995209
 21
3.3725411947032762
 31
0.0
  0
LINE
  5
3BE
  8
2-7
 10
4.3195574043995206
 20
3.3725411947032762
 30
0.0
 11
4.3195574043995206
 21
3.3863207227032759
 31
0.0
  0
LINE
  5
3BF
  8
2-7
 10
4.152571104397401
 20
3.093013626703276
 30
0.0
 11
4.152571104397401
 21
3.3725411947032762
 31
0.0
  0
LINE
  5
3C0
  8
2-7
 10
3.834346536393161
 20
3.093013626703276
 30
0.0
 11
3.834346536393161
 21
3.3725411947032762
 31
0.0
  0
LINE
  5
3C1
  8
2-7
 10
3.6752342523910411
 20
3.0930136267032751
 30
0.0
 11
3.6752342523910411
 21
3.3725411947032762
 31
0.0
  0
LINE
  5
3C2
  8
2-7
 10
3.6673602363910418
 20
3.3725411947032762
 30
0.0
 11
3.6673602363910418
 21
3.3863207227032759
 31
0.0
  0
LINE
  5
3C3
  8
2-7
 10
5.2513328763952813
 20
3.3851789903832761
 30
0.0
 11
5.2513328763952813
 21
4.1831711419032764
 31
0.0
  0
LINE
  5
3C7
  8
2-7
 10
2.7355847643952811
 20
1.7316356303832749
 30
0.0
 11
2.7355847643952811
 21
3.3851789903832752
 31
0.0
  0
LINE
  5
3C8
  8
2-7
 10
-0.1200371005130909
 20
7.4009271503832759
 30
0.0
 11
5.5872696213036539
 21
7.400927150383275
 31
0.0
  0
LINE
  5
3E3
  8
2-7
 10
2.7316477563952821
 20
3.3851789903832752
 30
0.0
 11
0.2158996443952822
 21
3.3851789903832761
 31
0.0
  0
LINE
  5
3E4
  8
2-7
 10
2.7316477563952821
 20
1.7316356303832749
 30
0.0
 11
2.7316477563952821
 21
3.3851789903832752
 31
0.0
  0
LINE
  5
3E5
  8
2-7
 10
1.869443004395281
 20
1.7316356303832749
 30
0.0
 11
1.869443004395281
 21
3.3851789903832752
 31
0.0
  0
LINE
  5
3E6
  8
2-7
 10
2.7316477563952821
 20
1.7316356303832749
 30
0.0
 11
1.869443004395281
 21
1.7316356303832749
 31
0.0
  0
LINE
  5
3E7
  8
2-7
 10
2.7316477563952821
 20
3.3851789903832739
 30
0.0
 11
2.7316477563952821
 21
4.1831711419032764
 31
0.0
  0
ARC
  5
3E8
  8
2-7
 10
1.4737737003952811
 20
3.1135188767032749
 30
0.0
 40
0.2567257299999997
 50
184.5812200852769
 51
355.41877991472302
  0
LINE
  5
3E9
  8
2-7
 10
1.1476751163910419
 20
3.3725411947032762
 30
0.0
 11
1.799872284399521
 21
3.3725411947032762
 31
0.0
  0
LINE
  5
3EA
  8
2-7
 10
1.791998268399521
 20
3.0930136267032751
 30
0.0
 11
1.155549132391041
 21
3.093013626703276
 31
0.0
  0
LINE
  5
3EB
  8
2-7
 10
1.6328859843974011
 20
3.093013626703276
 30
0.0
 11
1.6328859843974011
 21
3.3725411947032762
 31
0.0
  0
LINE
  5
3EC
  8
2-7
 10
1.791998268399521
 20
3.0930136267032751
 30
0.0
 11
1.791998268399521
 21
3.3725411947032762
 31
0.0
  0
LINE
  5
3ED
  8
2-7
 10
1.799872284399521
 20
3.3725411947032762
 30
0.0
 11
1.799872284399521
 21
3.3863207227032759
 31
0.0
  0
LINE
  5
3EE
  8
2-7
 10
1.155549132391041
 20
3.093013626703276
 30
0.0
 11
1.155549132391041
 21
3.3725411947032762
 31
0.0
  0
LINE
  5
3EF
  8
2-7
 10
1.3146614163931609
 20
3.093013626703276
 30
0.0
 11
1.3146614163931609
 21
3.3725411947032762
 31
0.0
  0
LINE
  5
3F0
  8
2-7
 10
1.1476751163910419
 20
3.3725411947032762
 30
0.0
 11
1.1476751163910419
 21
3.3863207227032759
 31
0.0
  0
LINE
  5
3F1
  8
2-7
 10
0.2158996443952822
 20
3.3851789903832761
 30
0.0
 11
0.2158996443952822
 21
4.1831711419032764
 31
0.0
  0
LINE
  5
403
  8
2-7
 10
11.15267710217798
 20
4.1831711419032747
 30
0.0
 11
8.1605510221779802
 21
4.1831711419032747
 31
0.0
  0
LINE
  5
404
  8
2-7
 10
8.1605510221779785
 20
4.1831711419032747
 30
0.0
 11
8.1605510221779802
 21
7.400927150383275
 31
0.0
  0
LINE
  5
405
  8
2-7
 10
11.15267710217798
 20
4.1831711419032747
 30
0.0
 11
11.15267710217798
 21
7.400927150383275
 31
0.0
  0
LINE
  5
406
  8
2-7
 10
11.15267710217798
 20
7.400927150383275
 30
0.0
 11
8.1605510221779802
 21
7.400927150383275
 31
0.0
  0
LINE
  5
409
  8
2-7
 10
8.3987400061779809
 20
3.3851789903832752
 30
0.0
 11
10.91448811817798
 21
3.3851789903832752
 31
0.0
  0
LINE
  5
40A
  8
2-7
 10
9.2255116861779811
 20
1.7316356303832749
 30
0.0
 11
9.2255116861779811
 21
3.3851789903832752
 31
0.0
  0
LINE
  5
40B
  8
2-7
 10
10.08771643817798
 20
1.7316356303832749
 30
0.0
 11
10.08771643817798
 21
3.3851789903832752
 31
0.0
  0
LINE
  5
40C
  8
2-7
 10
9.2255116861779811
 20
1.7316356303832749
 30
0.0
 11
10.08771643817798
 21
1.7316356303832749
 31
0.0
  0
LINE
  5
40D
  8
2-7
 10
8.3987400061779809
 20
3.3851789903832752
 30
0.0
 11
8.3987400061779809
 21
4.1831711419032747
 31
0.0
  0
LINE
  5
417
  8
2-7
 10
10.91448811817798
 20
3.3851789903832752
 30
0.0
 11
10.91448811817798
 21
4.1831711419032747
 31
0.0
  0
LINE
  5
437
  8
ADAPTER
 10
11.117244076918141
 20
10.14108480606834
 30
0.0
 11
11.117244076918141
 21
7.885966561583345
 31
0.0
  0
LINE
  5
438
  8
ADAPTER
 10
8.1959840474378165
 20
10.14108480606834
 30
0.0
 11
8.1959840474378147
 21
7.885966561583345
 31
0.0
  0
LINE
  5
43D
  8
ADAPTER
 10
10.86921252617798
 20
7.4009271503832741
 30
0.0
 11
8.4440155981779803
 21
7.4009271503832741
 31
0.0
  0
LINE
  5
43E
  8
ADAPTER
 10
10.86921252617798
 20
7.8009271759833103
 30
0.0
 11
8.4440155981779821
 21
7.8009271759833103
 31
0.0
  0
LINE
  5
447
  8
ADAPTER
 10
11.117244076918141
 20
10.14108480606834
 30
0.0
 11
8.1959840474378165
 21
10.14108480606834
 31
0.0
  0
LINE
  5
513
  8
ADAPTER
 10
8.4440155981779803
 20
7.4009271503832741
 30
0.0
 11
8.4440155981779803
 21
7.8009271759833103
 31
0.0
  0
LINE
  5
514
  8
ADAPTER
 10
10.86921252617798
 20
7.8009271759833103
 30
0.0
 11
11.117244076918141
 21
7.885966561583345
 31
0.0
  0
LINE
  5
515
  8
ADAPTER
 10
10.86921252617798
 20
7.4009271503832741
 30
0.0
 11
10.86921252617798
 21
7.8009271759833103
 31
0.0
  0
LINE
  5
51A
  8
ADAPTER
 10
8.4440155981779821
 20
7.8009271759833103
 30
0.0
 11
8.1959840474378147
 21
7.885966561583345
 31
0.0
  0
ARC
  5
51C
  8
ADAPTER
 10
2.1967338457891721
 20
13.543250548632271
 30
0.0
 40
1.805637345393891
 50
137.81222011349499
 51
222.1877798865049
  0
LINE
  5
51F
  8
ADAPTER
 10
0.8588507461926713
 20
14.75584901263227
 30
0.0
 11
4.6083817745978903
 21
14.75584901263227
 31
0.0
  0
LINE
  5
520
  8
ADAPTER
 10
0.8588507461926713
 20
12.33065208463228
 30
0.0
 11
4.6083817745978903
 21
12.33065208463228
 31
0.0
  0
ARC
  5
521
  8
ADAPTER
 10
3.270498675001388
 20
13.543250548632271
 30
0.0
 40
1.805637345393891
 50
317.81222011349502
 51
42.187779886504963
  0
LINE
  5
564
  8
2-7
  6
HIDDEN
 10
2.1824351403952811
 20
7.8733681103832751
 30
0.0
 11
2.5367658603952821
 21
7.8733681103832751
 31
0.0
  0
LINE
  5
566
  8
2-7
  6
HIDDEN
 10
3.2847973803952821
 20
7.8733681103832751
 30
0.0
 11
3.2847973803952821
 21
7.4009271503832768
 31
0.0
  0
LINE
  5
567
  8
2-7
  6
HIDDEN
 10
2.1824351403952811
 20
7.8733681103832751
 30
0.0
 11
2.1824351403952811
 21
7.4009271503832759
 31
0.0
  0
LINE
  5
569
  8
2-7
  6
HIDDEN
 10
2.930466660395282
 20
7.8733681103832751
 30
0.0
 11
2.930466660395282
 21
7.4796673103832747
 31
0.0
  0
LINE
  5
56A
  8
2-7
  6
HIDDEN
 10
2.930466660395282
 20
7.4796673103832747
 30
0.0
 11
2.5367658603952821
 21
7.4796673103832747
 31
0.0
  0
LINE
  5
56B
  8
2-7
  6
HIDDEN
 10
2.5367658603952821
 20
7.4796673103832747
 30
0.0
 11
2.5367658603952821
 21
7.8733681103832751
 31
0.0
  0
LINE
  5
56C
  8
2-7
  6
HIDDEN
 10
2.930466660395282
 20
7.8733681103832751
 30
0.0
 11
3.2847973803952821
 21
7.8733681103832751
 31
0.0
  0
CIRCLE
  5
6A2
  8
2-7
 10
2.300545380395282
 20
2.558407310383275
 30
0.0
 40
0.11811024
  0
POLYLINE
  8
0
  5
996
  66
     1
 10
0.000000
 20
0.000000
 30
0.000000
  70
     8
  0
VERTEX
  8
0
  5
997
 10
2.30055
 20
2.55841
 30
0.000000
  70
    32
  0
VERTEX
  8
0
  5
998
 10
0.568597
 20
3.13929
 30
0.000000
  70
    32
  0
VERTEX
  8
0
  5
999
 10
0.443597
 20
3.13929
 30
0.000000
  70
    32
  0
SEQEND
  8
0
  5
99A
  0
INSERT
  5
6A5
  8
ADAPTER
  2
*U1
 10
0.0
 20
0.0
 30
0.0
  0
CIRCLE
  5
6AA
  8
2-7
 10
3.1666871403952821
 20
2.558407310383275
 30
0.0
 40
0.11811024
  0
LINE
  5
706
  8
DRIVE_TANG
  6
HIDDEN
 10
2.5367658603952821
 20
7.4796673103832747
 30
0.0
 11
2.930466660395282
 21
7.4796673103832747
 31
0.0
  0
LINE
  5
707
  8
DRIVE_TANG
  6
HIDDEN
 10
2.1910965579952801
 20
9.0647067311832732
 30
0.0
 11
3.27613596279528
 21
9.0647067311832732
 31
0.0
  0
LINE
  5
709
  8
DRIVE_TANG
  6
HIDDEN
 10
2.5367658603952821
 20
7.8965964575832759
 30
0.0
 11
2.5367658603952821
 21
7.4796673103832747
 31
0.0
  0
LINE
  5
70C
  8
DRIVE_TANG
  6
HIDDEN
 10
2.1910965579952801
 20
7.8965964575832759
 30
0.0
 11
2.5367658603952821
 21
7.8965964575832759
 31
0.0
  0
LINE
  5
70E
  8
DRIVE_TANG
  6
HIDDEN
 10
2.1910965579952801
 20
9.0647067311832732
 30
0.0
 11
2.1910965579952801
 21
7.8965964575832759
 31
0.0
  0
LINE
  5
70F
  8
DRIVE_TANG
  6
HIDDEN
 10
2.930466660395282
 20
7.4796673103832747
 30
0.0
 11
2.930466660395282
 21
7.8965964575832741
 31
0.0
  0
LINE
  5
712
  8
DRIVE_TANG
  6
HIDDEN
 10
2.930466660395282
 20
7.8965964575832741
 30
0.0
 11
3.2761359627952809
 21
7.8965964575832759
 31
0.0
  0
LINE
  5
714
  8
DRIVE_TANG
  6
HIDDEN
 10
3.27613596279528
 20
9.0647067311832732
 30
0.0
 11
3.2761359627952809
 21
7.8965964575832759
 31
0.0
  0
TEXT
  5
7A0
  8
DIMENSION
 10
-1.0885773423509091
 20
10.9594427406943
 30
0.0
 40
0.15748032
  1
THE ADAPTER SHOWN IN THIS DRAWING IS ONLY TO ILLUSTRATE A TYPICAL ADAPTER
  7
ARIAL
  0
CIRCLE
  5
8EC
  8
ADAPTER
  6
HIDDEN
 10
2.7336162603952809
 20
13.543250548632271
 30
0.0
 40
1.1154999999999999
  0
CIRCLE
  5
8ED
  8
ADAPTER
  6
HIDDEN
 10
2.7336162603952809
 20
13.543250548632271
 30
0.0
 40
1.006219572934834
  0
ARC
  5
8EE
  8
ADAPTER
 10
2.7336162603952809
 20
13.543250548632271
 30
0.0
 40
1.460629967999999
 50
230.19199374888771
 51
309.8080062511122
  0
CIRCLE
  5
8EF
  8
ADAPTER
  6
HIDDEN
 10
2.7336162603952809
 20
13.543250548632271
 30
0.0
 40
0.625
  0
ARC
  5
8F0
  8
ADAPTER
 10
2.7336162603952809
 20
13.543250548632271
 30
0.0
 40
1.460629967999999
 50
50.191993748887789
 51
129.80800625111209
  0
CIRCLE
  5
8F1
  8
2-7
  6
HIDDEN
 10
2.7336162603952809
 20
13.543250548632271
 30
0.0
 40
1.0826772
  0
ARC
  5
8F2
  8
ADAPTER
  6
HIDDEN
 10
2.7336162603952809
 20
13.543250548632271
 30
0.0
 40
1.460629967999999
 50
129.80800625111209
 51
230.19199374888771
  0
LINE
  5
8F3
  8
ADAPTER
  6
HIDDEN
 10
4.6328289195952834
 20
14.340494668632269
 30
0.0
 11
3.844500637391572
 21
14.665297828632269
 31
0.0
  0
ARC
  5
8F4
  8
ADAPTER
  6
HIDDEN
 10
2.7336162603952809
 20
13.543250548632271
 30
0.0
 40
1.460629967999999
 50
309.8080062511122
 51
50.191993748887789
  0
ARC
  5
8F5
  8
ADAPTER
 10
4.135807168403324
 20
12.48741360773764
 30
0.0
 40
0.0824692778919425
 50
214.2219499523211
 51
325.77805004767828
  0
LINE
  5
8F6
  8
ADAPTER
  6
HIDDEN
 10
4.6328289195952834
 20
12.746006428632271
 30
0.0
 11
4.0184010243043602
 21
12.746006428632271
 31
0.0
  0
LINE
  5
8F7
  8
ADAPTER
  6
HIDDEN
 10
4.0479311540913372
 20
12.68695130863227
 30
0.0
 11
4.6328290285872242
 21
12.68695130863227
 31
0.0
  0
LINE
  5
8F8
  8
ADAPTER
 10
3.8445006373915751
 20
12.42120326863227
 30
0.0
 11
3.2900399623952459
 21
12.19275709538182
 31
0.0
  0
LINE
  5
8F9
  8
ADAPTER
  6
HIDDEN
 10
4.0184010243043602
 20
12.49285285481305
 30
0.0
 11
3.8445006373915751
 21
12.42120326863227
 31
0.0
  0
LINE
  5
8FA
  8
ADAPTER
  6
HIDDEN
 10
4.067616194091336
 20
12.68695130863227
 30
0.0
 11
4.067616194091336
 21
12.44103287015834
 31
0.0
  0
LINE
  5
8FB
  8
ADAPTER
  6
HIDDEN
 10
4.0184010243043602
 20
12.746006428632271
 30
0.0
 11
4.0184010243043602
 21
12.49285285481305
 31
0.0
  0
LINE
  5
8FC
  8
ADAPTER
  6
HIDDEN
 10
4.0479311540913372
 20
12.68695130863227
 30
0.0
 11
4.0479311540913372
 21
12.746006428632271
 31
0.0
  0
LINE
  5
8FD
  8
ADAPTER
  6
HIDDEN
 10
4.6328289195952834
 20
14.340494668632269
 30
0.0
 11
4.6328289195952834
 21
12.746006428632271
 31
0.0
  0
ARC
  5
8FE
  8
ADAPTER
 10
4.5449530142752357
 20
12.48741360773764
 30
0.0
 40
0.0824692778919425
 50
214.22194995232169
 51
325.77805004767879
  0
LINE
  5
8FF
  8
ADAPTER
 10
4.135807168403324
 20
12.4049443298457
 30
0.0
 11
4.5449530142752357
 21
12.4049443298457
 31
0.0
  0
ARC
  5
900
  8
ADAPTER
 10
4.3403800913392843
 20
12.68068863094452
 30
0.0
 40
0.2757443010988207
 50
240.356905410038
 51
299.6430945899599
  0
LINE
  5
901
  8
ADAPTER
  6
HIDDEN
 10
4.2039981427153057
 20
12.68695130863227
 30
0.0
 11
4.2039981427153057
 21
12.441032870158329
 31
0.0
  0
LINE
  5
902
  8
ADAPTER
  6
HIDDEN
 10
4.4767620399632539
 20
12.68695130863227
 30
0.0
 11
4.4767620399632539
 21
12.441032870158329
 31
0.0
  0
LINE
  5
903
  8
ADAPTER
  6
HIDDEN
 10
4.6131439885872254
 20
12.68695130863227
 30
0.0
 11
4.6131439885872254
 21
12.44103287015834
 31
0.0
  0
LINE
  5
904
  8
ADAPTER
  6
HIDDEN
 10
4.6328290285872242
 20
12.68695130863227
 30
0.0
 11
4.6328290285872242
 21
12.746006428632271
 31
0.0
  0
LINE
  5
905
  8
ADAPTER
 10
3.844500637391572
 20
14.665297828632269
 30
0.0
 11
3.2900399623952459
 21
14.89374400188273
 31
0.0
  0
LINE
  5
906
  8
ADAPTER
  6
HIDDEN
 10
3.8491162603952822
 20
8.2660847183832722
 30
0.0
 11
1.618116260395281
 21
8.2660847183832722
 31
0.0
  0
LINE
  5
907
  8
ADAPTER
  6
HIDDEN
 10
1.65093906039528
 20
7.2828169103832741
 30
0.0
 11
3.8162934603952818
 21
7.2828169103832741
 31
0.0
  0
LINE
  5
908
  8
ADAPTER
 10
0.7651122603952807
 20
7.8009271631832737
 30
0.0
 11
4.7021202603952821
 21
7.8009271631832782
 31
0.0
  0
LINE
  5
909
  8
ADAPTER
 10
1.2729862923952799
 20
10.14108471838327
 30
0.0
 11
4.1942462283952793
 21
10.14108471838327
 31
0.0
  0
LINE
  5
90A
  8
ADAPTER
 10
0.7651122603952807
 20
7.4009271503832741
 30
0.0
 11
4.7021202603952821
 21
7.4009271503832741
 31
0.0
  0
LINE
  5
90B
  8
ADAPTER
  6
HIDDEN
 10
1.743116260395281
 20
7.4805940254843319
 30
0.0
 11
3.7241162603952822
 21
7.4805940254843319
 31
0.0
  0
LINE
  5
90C
  8
2-7
  6
HIDDEN
 10
1.65093906039528
 20
7.2828169103832741
 30
0.0
 11
3.8162934603952818
 21
7.2828169103832741
 31
0.0
  0
LINE
  5
90D
  8
ADAPTER
  6
HIDDEN
 10
1.618116260395281
 20
10.14108471838327
 30
0.0
 11
1.618116260395281
 21
8.2660847183832722
 31
0.0
  0
LINE
  5
90E
  8
ADAPTER
 10
1.2729862923952799
 20
10.14108471838327
 30
0.0
 11
1.2729862923952799
 21
7.8009271631832737
 31
0.0
  0
LINE
  5
90F
  8
ADAPTER
 10
0.7651122603952807
 20
7.4009271503832741
 30
0.0
 11
0.7651122603952807
 21
7.8009271631832737
 31
0.0
  0
LINE
  5
910
  8
ADAPTER
  6
HIDDEN
 10
1.743116260395281
 20
8.2660847183832722
 30
0.0
 11
1.743116260395281
 21
7.4805940254843319
 31
0.0
  0
LINE
  5
911
  8
ADAPTER
  6
HIDDEN
 10
1.65093906039528
 20
7.4009271503832741
 30
0.0
 11
1.65093906039528
 21
7.2828169103832741
 31
0.0
  0
LINE
  5
912
  8
2-7
  6
HIDDEN
 10
1.65093906039528
 20
7.4009271503832741
 30
0.0
 11
1.65093906039528
 21
7.2828169103832741
 31
0.0
  0
LINE
  5
913
  8
ADAPTER
  6
HIDDEN
 10
2.1086162603952809
 20
7.2828169103832741
 30
0.0
 11
2.1086162603952809
 21
7.4805940254843319
 31
0.0
  0
LINE
  5
914
  8
ADAPTER
 10
4.1942462283952819
 20
8.7139193183832742
 30
0.0
 11
4.1942462283952819
 21
7.8009271631832737
 31
0.0
  0
LINE
  5
915
  8
ADAPTER
  6
HIDDEN
 10
3.8491162603952822
 20
10.14108471838327
 30
0.0
 11
3.8491162603952822
 21
8.2660847183832722
 31
0.0
  0
LINE
  5
916
  8
ADAPTER
  6
HIDDEN
 10
3.7241162603952822
 20
8.2660847183832722
 30
0.0
 11
3.7241162603952822
 21
7.4805940254843319
 31
0.0
  0
LINE
  5
917
  8
ADAPTER
  6
HIDDEN
 10
3.3586162603952809
 20
7.2828169103832741
 30
0.0
 11
3.3586162603952809
 21
7.4805940254843319
 31
0.0
  0
LINE
  5
918
  8
ADAPTER
  6
HIDDEN
 10
3.8162934603952818
 20
7.2828169103832741
 30
0.0
 11
3.8162934603952818
 21
7.4009271503832741
 31
0.0
  0
LINE
  5
919
  8
2-7
  6
HIDDEN
 10
3.8162934603952818
 20
7.2828169103832741
 30
0.0
 11
3.8162934603952818
 21
7.4009271503832741
 31
0.0
  0
LINE
  5
91A
  8
ADAPTER
 10
4.7021202603952821
 20
7.4009271503832741
 30
0.0
 11
4.7021202603952821
 21
7.8009271631832782
 31
0.0
  0
LINE
  5
91B
  8
ADAPTER
 10
4.6328289195952834
 20
8.7139193183832742
 30
0.0
 11
3.6485769195952811
 21
8.7139193183832742
 31
0.0
  0
LINE
  5
91C
  8
ADAPTER
 10
3.6485769195952811
 20
10.04265951838328
 30
0.0
 11
4.6328289195952834
 21
10.042659518383269
 31
0.0
  0
POLYLINE
  5
91D
  8
ADAPTER
 66
     1
 10
0.0
 20
0.0
 30
0.0
 70
     1
  0
VERTEX
  5
98F
  8
ADAPTER
 10
4.2039981427153101
 20
9.6145098826352431
 30
0.0
  0
VERTEX
  5
990
  8
ADAPTER
 10
4.067616194091336
 20
9.3782894183832752
 30
0.0
  0
VERTEX
  5
991
  8
ADAPTER
 10
4.2039981427153101
 20
9.1420689541313074
 30
0.0
  0
VERTEX
  5
992
  8
ADAPTER
 10
4.4767620399632539
 20
9.1420689541313074
 30
0.0
  0
VERTEX
  5
993
  8
ADAPTER
 10
4.6131439885872254
 20
9.3782894183832752
 30
0.0
  0
VERTEX
  5
994
  8
ADAPTER
 10
4.4767620399632539
 20
9.6145098826352431
 30
0.0
  0
SEQEND
  5
995
  8
ADAPTER
  0
LINE
  5
91E
  8
ADAPTER
  6
HIDDEN
 10
3.6485769195952811
 20
10.042659518383269
 30
0.0
 11
3.6485769195952811
 21
8.7139193183832742
 31
0.0
  0
LINE
  5
91F
  8
ADAPTER
 10
4.6328289195952834
 20
10.042659518383269
 30
0.0
 11
4.6328289195952834
 21
8.7139193183832742
 31
0.0
  0
CIRCLE
  5
920
  8
ADAPTER
 10
4.3403800913392798
 20
9.3782894183832752
 30
0.0
 40
0.219347573948256
  0
LINE
  5
921
  8
ADAPTER
 10
4.1942462283952793
 20
10.14108471838327
 30
0.0
 11
4.1942462283952793
 21
10.042659518383269
 31
0.0
  0
LINE
  5
924
  8
ADAPTER
  6
HIDDEN
 10
10.64711406217798
 20
8.2660847183832704
 30
0.0
 11
10.64711406217798
 21
7.4805940254843311
 31
0.0
  0
LINE
  5
925
  8
ADAPTER
  6
HIDDEN
 10
8.6661140621779804
 20
8.2660847183832704
 30
0.0
 11
8.6661140621779804
 21
7.4805940254843311
 31
0.0
  0
LINE
  5
926
  8
ADAPTER
  6
HIDDEN
 10
8.6661140621779804
 20
7.4805940254843311
 30
0.0
 11
10.64711406217798
 21
7.4805940254843311
 31
0.0
  0
LINE
  5
927
  8
ADAPTER
  6
HIDDEN
 10
8.5739368621779803
 20
7.2828169103832741
 30
0.0
 11
10.73929126217798
 21
7.2828169103832741
 31
0.0
  0
LINE
  5
928
  8
ADAPTER
  6
HIDDEN
 10
8.5739368621779803
 20
7.4009271503832741
 30
0.0
 11
8.5739368621779803
 21
7.2828169103832741
 31
0.0
  0
LINE
  5
929
  8
ADAPTER
  6
HIDDEN
 10
9.0316140621779812
 20
7.2828169103832741
 30
0.0
 11
9.0316140621779812
 21
7.4805940254843311
 31
0.0
  0
LINE
  5
92A
  8
ADAPTER
  6
HIDDEN
 10
10.281614062177979
 20
7.2828169103832741
 30
0.0
 11
10.281614062177979
 21
7.4805940254843311
 31
0.0
  0
LINE
  5
92B
  8
ADAPTER
  6
HIDDEN
 10
10.73929126217798
 20
7.2828169103832741
 30
0.0
 11
10.73929126217798
 21
7.4009271503832741
 31
0.0
  0
LINE
  5
92C
  8
ADAPTER
  6
HIDDEN
 10
10.77211406217798
 20
8.2660847183832704
 30
0.0
 11
8.5411140621779804
 21
8.2660847183832704
 31
0.0
  0
LINE
  5
92D
  8
ADAPTER
  6
HIDDEN
 10
10.77211406217798
 20
10.14108471838327
 30
0.0
 11
10.77211406217798
 21
8.2660847183832704
 31
0.0
  0
LINE
  5
92E
  8
ADAPTER
  6
HIDDEN
 10
8.5411140621779804
 20
10.14108471838327
 30
0.0
 11
8.5411140621779804
 21
8.2660847183832704
 31
0.0
  0
LINE
  5
92F
  8
2-7
  6
HIDDEN
 10
8.5739368621779803
 20
7.2828169103832741
 30
0.0
 11
10.73929126217798
 21
7.2828169103832741
 31
0.0
  0
LINE
  5
930
  8
2-7
  6
HIDDEN
 10
8.5739368621779803
 20
7.4009271503832741
 30
0.0
 11
8.5739368621779803
 21
7.2828169103832741
 31
0.0
  0
LINE
  5
931
  8
2-7
  6
HIDDEN
 10
10.73929126217798
 20
7.2828169103832741
 30
0.0
 11
10.73929126217798
 21
7.4009271503832741
 31
0.0
  0
ENDSEC
  0
EOF
